Kamis, 20 Juni 2013

Tabs And Chord: Sixpence None The Richer - Kiss Me

Sixpence None The Richer  hmm memang ada yang belum mengenal banyak tentang band ini, namun jangan salah sangka sob, banyak lagu-lagu nya yang enak didengar salah satu nya lagu Kiss Me. Lagu ini pasti sudah tidak asing lagikan di telinga sobat. Kali ini saya mau share nih chord dari Sixpence None The Richer - Kiss Me jika sobat mau download lagunya silahkan klik DISINI
catatan : Butuh Capo di Fret 3


Sixpence None The Richer - Kiss Me

Intro 2x : C   C7M  C7   C7M

C         C7M
  Kiss me  out of the bearded barley.
C7        C7M
  Nightly,  beside the green, green grass.
C              C7M
  Swing, swing,  swing the spinning step.
C7                            F
  You wear those shoes and I will wear that dress.

Reff :
   Dm     G  C             Am
Oh, kiss me   beneath the milky twilight.
Dm      G  C            C7
  Lead me   out on the moonlit floor.
Dm          G
  Lift your open hand
C               C9/B              Am               Am7/G
 Strike up the band and make the fireflies dance, silver moon's
  F7M      G4  
sparkling.

So kiss me. 

Back to : Intro

verse 2
C        C7M                        C7
 Kiss me   down by the broken tree house.
         C7M
Swing me   upon its hanging tire.
C             C7M
 Bring, bring,  bring your flowered hat.
C7                                F
  We'll take the trail marked on your father's map.

Reff:

   Dm     G  C             Am
Oh, kiss me   beneath the milky twilight.
Dm      G  C            C7
  Lead me   out on the moonlit floor.
Dm          G
  Lift your open hand
C               C9/B              Am               Am7/G
 Strike up the band and make the fireflies dance, silver moon's
  F7M      G4  
sparkling.

So kiss me. 

   C                CM7               C7

e|----------------------------0---------------------------|
B|-----4---0-4----------0---6---6---------4-------4-------|
G|-------0-----0----------0-------0---------0h6-6---6-----|
s|---5-----------5----5-----------------5-------------5---|
A|-6----------------6-----------------6-------------------|
E|--------------------------------------------------------|

   CM7              C                 CM7   

e|-----------0----------------------------------0--------|
B|-----0---6---6--------4---0-4-----------0---6---6------|
G|-------0-------0--------0-----0-----------0-------0----|
D|---5----------------5-----------5-----5----------------|
A|-6----------------6-----------------6------------------|
E|-------------------------------------------------------|

   C7                CM7           CM7pause

e|-------------0----------------0--------|
B|-----4-----4---4------------6---6------|
G|---------6-------------0---------------|
D|---5---5-------------5---5-------------|
A|-6-----------------6-------------------|
E|---------------------------------------|


Dm   G   C   Am
Dm   G   C   C7

Back to : Reff

Outro :    

C   CM7   C7   M7 (2x)

La la la la la la  ... .. . .la la .





Terima Kasih Telah Berkunjung
Judul: Tabs And Chord: Sixpence None The Richer - Kiss Me
Ditulis Oleh Jordan Setiawan
Terimakasih telah membaca artikel Tabs And Chord: Sixpence None The Richer - Kiss Me Semoga dapat membantu. tolong jelajahi lagi blog ini untuk mendapatkan tips musik dan berita musik lainnya

6 komentar:

  1. kunjungan siang, mantap gan lagunya..

    BalasHapus
  2. Rapi banget sih sob postingan nya di jamin nih blog bakalan laku keras kaya dagangan di pasar :D

    BalasHapus
    Balasan
    1. iya sob makasih telah berkunjung ke blog saya ^^ secepatnya saya kunjungi balik blog sobat

      Hapus
  3. Balasan
    1. walaupun jadul juga masih enak untuk dimainkan dengan gitar sob ^^

      Hapus
Catatan : Di mohon untuk tidak berkomentar dengan menaruh link aktif di kolom komentar.