Kamis, 15 Agustus 2013

Tabs and Chord: J Rock - Ceria

J Rock Band


Kesempatan kali ini saya akan mem-share salah satu lagu dari J-Rock yang berjudul Ceria pasti sudah tidak asing lagi bukan, dengan kunci gitar yang full tabs membantu kalian mempelajari swing jazz style yang ada di lagu ini. Keren kan?
Download Lagu:  Klik DIISINI
Download Tab GuitarPro: Klik DISINI


J-Rocks - Ceria

Intro :
E-----------------------------------------|
B-----------------------------------------|
G--9-9-9---------------7-7-7--------------|
D--9-9-9---7-7-7-7-7---7-7-7---9-9-9-9-9--|
A--7-7-7---7-7-7-7-7---5-5-5---9-9-9-9-9--|
E----------5-5-5-5-5-----------7-7-7-7-7--|


E----------------------------------------|
B----------------------------------------|
G--9-9-9---------------7-7-7-7-7-7-7-7---|
D--9-9-9---7-7-7-7-7---7-7-7-7-7-7-7-7---|
A--7-7-7---7-7-7-7-7---5-5-5-5-5-5-5-5---|
E----------5-5-5-5-5---------------------|

E-----------------------------------------|
B-----------------------------------------|
G--9-9-9---------------7-7-7--------------|
D--9-9-9---7-7-7-7-7---7-7-7---9-9-9-9-9--|
A--7-7-7---7-7-7-7-7---5-5-5---9-9-9-9-9--|
E----------5-5-5-5-5-----------7-7-7-7-7--|


E--------------------------|
B--------------------------|
G--9-9-9---------------7---|
D--9-9-9---7-7-7-7-7---7---|
A--7-7-7---7-7-7-7-7---5---|
E----------5-5-5-5-5-------|


                   Em             A
Hari ini kudendangkan
                                 D             Bm
Lagu yang ingin kunyanyikan
                              Em
Terkenang semua kenangan
           A              D
Yang tlah kualami
                             Em         A
Ingin kubuka lembar baru
                                D          Bm
Untuk meneruskan hidupku
                      Em
Tak mau lagi kesedihan
      A           D
Slimuti diriku
G         A                  D      Bm
Semua orang ingin bahagia
             Em     A               D
Menjalani hidup di dunia ini
G        A              F#m   Bm       Em
Ingin kubukakan jawaban misteri
     A                       D
Kesenangan sejati

Reff :
Em      A                    D          Bm
Me…..nari dan terus ber……nyanyi
            Em  A                     D
Mengikuti irama sang mentari
Em      A                       F#m  Bm
Ter…..tawa dan selalu ce…..ria
        Em     A             D
Berikan ku arti hidup ini


E-----------------------------------------|
B-----------------------------------------|
G----9s10--9--7--9s10--10--10s12--7--7s9--|
D-----------------------------------------|
A-----------------------------------------|
E-----------------------------------------|



E------------------------------------------------------------------------------------|
B-13--12--11--10----------------------------------------------------------10--10s12--|
G------------------12--10--9h10p9----------------------------------------------------|
D-----------------------------------12--10--9h10p9-------------9--10--12-------------|
A-----------------------------------------------------12--10--12---------------------|
E------------------------------------------------------------------------------------|



E---------------------------------------------|
B--12--13--15--17--17b1/4--15--13--15--15b17--|
G---------------------------------------------|
D---------------------------------------------|
A---------------------------------------------|
E---------------------------------------------|



E---------------------------------------------------------------|
B--12--10--9h10p9-----------------------------------------------|
G--------------------11--9--8--9--8-----------------9--8--9--8--|
D-------------------------------------9--------------9----------|
A-------------------------------------9--7--6--7s9--------------|
E---------------------------------------------------------------|



E---------------------------------6--7--8|--9--10--11--12|11-12-11------------------|
B---------------------6--7--8--9-------------------------------------12-------------|
G--6--8--5--6--8--9---------------------------------------------------11---9-8-9-8--|
D-----------------------------------------------------------------------------------|
A-----------------------------------------------------------------------------------|
E-----------------------------------------------------------------------------------|




E------------------------------------12--14b1/4--12--14--12--------12---------------|
B----------------------------12--14-----------------------------14--12--14--12--14--|
G-11b13--9--11---9--11s13-----------------------------------------------------------|
D----------------9h11---------------------------------------------------------------|
A-----------------------------------------------------------------------------------|
E-----------------------------------------------------------------------------------|



E--14b16--14b16--14b16--14b16--14b16--14--12-------------------------------


Reff :

Em      A                    D          Bm
Me…..nari dan terus ber……nyanyi
            Em  A                     D
Mengikuti irama sang mentari
Em      A                       F#m  Bm
Ter…..tawa dan selalu ce…..ria
        Em     A             D
Berikan ku arti hidup ini


Em      A                    D          Bm
Me…..nari dan terus ber……nyanyi
            Em  A                     D
Mengikuti irama sang mentari
Em      A                       F#m  Bm
Ter…..tawa dan selalu ce…..ria
        Em     A             D
Berikan ku arti hidup ini

Terima Kasih Telah Berkunjung
Judul: Tabs and Chord: J Rock - Ceria
Ditulis Oleh Jordan Setiawan
Terimakasih telah membaca artikel Tabs and Chord: J Rock - Ceria Semoga dapat membantu. tolong jelajahi lagi blog ini untuk mendapatkan tips musik dan berita musik lainnya

6 komentar:

  1. thanks gan....

    commentback : http://fajry-bloggers-4rt.blogspot.com/

    BalasHapus
    Balasan
    1. oke bro, thanks pasti saya kunjungi ^^

      Hapus
  2. thanks cordnya bro :D visit - http://ainnonymous.blogspot.com/2013/08/dzing-blogger-template.html

    BalasHapus
    Balasan
    1. oke bro thanks ya kunjungan nya, pasti saya kunjungi balik :)

      Hapus
  3. aduh bro ane masih newbie jadi pusing kalau liat cordnya, tapi ane masih dalam tahap belajar, visit and comment ya gan! www.henryds.com

    BalasHapus
    Balasan
    1. oke bro terus belajar ya, thanks kunjungan nya

      Hapus
Catatan : Di mohon untuk tidak berkomentar dengan menaruh link aktif di kolom komentar.